FANDOM


Deny


CHORUS 

D   C
Deny
              B
You're such a liar
A                  E                           D
You won't know the truth if it hits you in the eye

VERSE

Bm                   G
An’ you said we were going out 
Bm         G
To the 100 club
Bm                G
Then you said “it ain't my scene” 
    A
But then you turned up alone
Then you turned up alone


Lead guitar plays the following repeatedly over Bm and G chords:

|-9------14------|
|--10------15----|
|----11------16--|
|----------------|
|----------------|
|----------------|

So on for the rest of the song

SOLO

|------------------------------------------------------------|
|--------------------------191919-17h1917h1917h19---22-22-22-|
|-12b14--11-12-14-12-----------------------------------------|
|------------------------------------------------------------|
|------------------------------------------------------------|
|------------------------------------------------------------|

|---------------------|
|--20-19-19b20-20b19~-|
|---------------------|
|---------------------|
|---------------------|
|---------------------|


|----------------------------18------|
|---------15---15--18--18b19----19~--|
|----14h16---16----------------------|
|------------------------------------|
|------------------------------------|
|------------------------------------|

|------10-----10-----10-----------------|
|----------------------10---------------|
|-11h12--11h12--11h12----11-12-11-------|
|---------------------------------12-9~-|
|---------------------------------------|
|---------------------------------------|

|------10-------------10------------10-------------10---10-10-10-10-10-10--10--|
|----------------------------------------------7~--10---10-10-10-10-10-10--10--|
|-11h12---11~----11h12---11~---11h12--11-12-14---------------------------------|
|------------------------------------------------------------------------------|
|------------------------------------------------------------------------------|
|------------------------------------------------------------------------------|

Ad blocker interference detected!


Wikia is a free-to-use site that makes money from advertising. We have a modified experience for viewers using ad blockers

Wikia is not accessible if you’ve made further modifications. Remove the custom ad blocker rule(s) and the page will load as expected.